Ćwiczenia na gitarę dla początkujących | kursgitary.pl

by Damian
7 lat ago
103 Views

Ćwiczenia dla początkujących

Jeśli to są Wasze początki z gitarą, warto poznać kilka podstawowych ćwiczeń na prawą i lewą rękę. Tak na prawdę dużo zależy od samej budowy ręki. Generalnie osoby, które mają większe i mocniejsze ręce powinny mieć łatwiej, chociaż oczywiście nie przesądza to o jakości gry. Ćwiczenia dla początkujących będę zapisywał w tabulaturze. O tym jak ją czytać napisałem w tym miejscu. Zatem zaczynamy.

Ćwiczenia na prawą rękę:

----------------0---------------
-------------0-----0------------
----------0----------0----------
-------0----------------0-------
----0----------------------0----
-0----------------------------0-

Pokrótce chodzi o to, żeby uderzać kolejne puste struny. Na początku możemy stosować kostkowanie jednostronne, w kolejnym etapie kostkowanie obustronne.

Kolejne będzie już ze skokiem co dwie struny, czyli E6, D4; A5,G3; D4, B2 itd. Gramy to ćwiczenie w górę i w dół.

----------------------0-0-------------------
----------------0-------------0-------------
----------0-------0-------0------0----------
----0-------0------------------0------0-----
-------0-----------------------------0------
-0----------------------------------------0-

Ćwiczenie na lewą rękę:

Żeby nie forsować sobie za bardzo dłoni zaczniemy to ćwiczenie od wyższych progów. Później w miarę, jak palce będą bardziej rozciągnięte, będzie można ćwiczyć od pierwszych progów.

W ćwiczeniu chodzi tylko o to, żeby stawiać kolejne palce na strunach na wybranych progach, bez ich uderzania. I tak na strunie E6 stawiamy pierwszy palec na progu piątym, na strunie A5 drugi palec próg 6 itd. Czyli wychodzi, że do próg piąty na każdej strunie gramy pierwszym palcem, próg szósty – drugi palec, próg siódmy – trzeci palec, próg ósmy – czwarty palec.

--------------------------------------------------------5-6-7-8
---------------------------------------------5-6-7-8-----------
----------------------------------5-6-7-8----------------------
-----------------------5-6-7-8---------------------------------
------------5-6-7-8--------------------------------------------
-5-6-7-8-------------------------------------------------------

Warto wykonać te ćwiczenia, jako rozgrzewkę przed właściwym graniem lub kolejnymi ćwiczeniami.

Gdy wyćwiczymy już te wprawki, to będzie mogli swobodnie grać trudne solówki z naszym zespołem muzycznym.

Summary
Ćwiczenia na gitarę dla początkujących
Article Name
Ćwiczenia na gitarę dla początkujących
Description
Kilka ćwiczeń na gitarę dla początkujących wraz z ich opisem.
Author
Publisher Name
Nauka gry na gitarze Wrocław - Damian Ciosek
Publisher Logo
Tagi: , , , , ,

4 komentarze

Dodaj komentarz

Twój adres email nie zostanie opublikowany. Pola, których wypełnienie jest wymagane, są oznaczone symbolem *