Jak czytać tabulatury | Nauka gry na gitarze Wrocław | kursgitary.pl

by Damian
7 lat ago
604 Views

Jak czytać tabulatury?

W internecie jest mnóstwo miejsc, w których można znaleźć tabulatury utworów, riffów, solówek. Warto zatem wiedzieć, jak czytać tabulatury, żeby móc je wykorzystać.
Tabulatura, to nic innego, jak struny gitary, na której cyfry oznaczają progi, które należy przycisnąć np.:

------------------------E1
-----0-------0----------B2 (H2)
---0---0---0---0--------G3
-5-------4--------------D4
------------------------A5
------------------------E6

Jak czytać tabulatury

Czyli, na strunie D4 przyciskamy piąty próg, kolejne struny gramy puste, ponieważ cyfra zero oznacza pustą strunę.
Jeżeli cyfry są obok siebie, to gramy je po kolei. Gdyby były nad sobą, to znaczy, że gramy je jednocześnie, np:

------------------------E1
------------------------B2
--0---3---5-------------G3
--0---3---5-------------D4
------------------------A5
------------------------E6

Czytanie tabulatur

Tabulatury posiadają również specjalnie oznaczenia na zagranie konkretną techniką.

Np legato w górę (5h7 – z piątego progu na siódmy – po angielsku „hammer on”) lub legato w dół (8p5 – z ósmego progu na piąty – po angielsku „pull of”) oznaczamy w ten sposób:

----------------E1
-----------8p5--B2
----5h7---------G3
----------------D4
----------------A5
----------------E6

Jak czytać tabulatury - legato

Slide, glissando – czyli przesunięcie z jednego progu na drugi, w górę lub w dół:

----------------E1
-----------8\5--B2
----5/7---------G3
----------------D4
----------------A5
----------------E6

Jak czytać tabulatury - slide

Podciągnięcie:

----------------E1
----------------B2
------7^9-------G3
----------------D4
----------------A5
----------------E6

Jak czytać tabulatury - podciągnięcie

Tłumione struny (lewą ręką):

----------------E1
----------------B2
---X-X-X--------G3
---X-X-X--------D4
---X-X-X--------A5
----------------E6

Jak czytać tabulatury - tłumienie

Tłumione struny (prawą ręką) – palm muting:

pm__________
----------------E1
-----------5----B2
--5---7---------G3
----------------D4
----------------A5
----------------E6

Jak czytać tabulatury - palm muting

Wibrato:

----------------E1
------8~--------B2
----------------G3
----------------D4
----------------A5
----------------E6

Jak czytać tabulatury - wibrato

To są podstawowe zapisy w tabulaturze. Istnieją oczywiście inne, ale do nich dojdziemy w odpowiednim czasie :)

W międzyczasie można zrealizować kilka ćwiczeń dla początkujących na gitarę lub zajrzeć na strony z tabulaturami i nauczyć się ulubiony utwór.

Tabulatury można szukać poprzez wpisanie w wyszukiwarce tytułu utworu i dodaniu słowa „tab” lub „tabulatura”, np. „wehikuł czasu tabulatura”.

Tabulatura może być w formie tekstowej lub jako plik najpopularniejszego programu do tabulatur Guitar Pro. Mając plik z tabulaturą w formacie *.gpx możemy wczytać go do programu i odtwarzać np. w zwolnionym tempie, żeby grać z utworem. Możemy również zmienić tonację utworu.

Program Guitar Pro jest programem płatnym, ale istnieje darmowy zamiennik o porównywalnych możliwościach „Tux guitar”. Polecam zapoznać się z wyżej wymienionymi programami, ponieważ mogą one pomóc w nauce ulubionych utworów.

Summary
Jak czytać tabulaturę gitarową
Article Name
Jak czytać tabulaturę gitarową
Description
Oznaczenia na tabulaturach - jak je czytać. Opis oznaczeń tabulatury.
Author
Publisher Name
Nauka gry na gitarze Wrocław - Damian Ciosek
Publisher Logo
Tagi: , , , , ,

3 komentarze

Dodaj komentarz

Twój adres email nie zostanie opublikowany. Pola, których wypełnienie jest wymagane, są oznaczone symbolem *