Jak łapać akordy na gitarze | Chwyty gitarowe | kursgitary.pl

by Damian
7 lat ago
764 Views

Akordy na gitarze – podstawowe chwyty

W dzisiejszym odcinku napiszę, jak łapać podstawowe akordy na gitarze.

Będą to akordy, które warto nauczyć się na samym początku, czyli:

  • Emol
  • Edur
  • Amol
  • Adur
  • Dmol
  • Ddur
  • Cdur
  • Gdur

Tych osiem akordów wystarczy, żeby zagrać wiele ciekawych utworów.

Akord Emol

----0-------

----0-------

----0-------

----2-------

----2-------

----0-------

Akord Edur

----0-------

----0-------

----1-------

----2-------

----2-------

----0-------

Akord Amol

----0-------

----1-------

----2-------

----2-------

----0-------

----x-------

Akord Adur

----0-------

----2-------

----2-------

----2-------

----0-------

----x-------

Akord Dmol

----1-------
----3-------
----2-------
----0-------
----x-------
----x-------

Akord Ddur

----2-------
----3-------
----2-------
----0-------
----x-------
----x-------

Akord Cdur

----0-------

----1-------

----0-------

----2-------

----3-------

----0-------

Akord Gdur

----3-------

----3-------

----0-------

----0-------

----2-------

----3-------

Akordy czytamy tak, jak opisałem to w poprzednim poście, jak czytać tabulatury.

Znak “x” oznacza, że nie gramy oznaczonej tak struny.

Jeśli ktoś zna już podstawowe akordy na gitarze, warto wiedzieć, jak budować akordy na gitarze.

Summary
Jak łapać akordy na gitarze
Article Name
Jak łapać akordy na gitarze
Description
Diagramy podstawowych akordów gitarowych z wyjaśnieniem, jak je zagrać.
Author
Publisher Name
Nauka gry na gitarze Wrocław - Damian Ciosek
Publisher Logo
Tagi: , , , , , , , , , , , , , , , , ,

2 komentarze

Dodaj komentarz

Twój adres email nie zostanie opublikowany. Pola, których wypełnienie jest wymagane, są oznaczone symbolem *